ISO-10303-21;
HEADER;
/* Generated by software containing ST-Developer
 * from STEP Tools, Inc. (www.steptools.com) 
 */

FILE_DESCRIPTION(
/* description */ (''),
/* implementation_level */ '2;1');

FILE_NAME(
/* name */ 
'C:\\Users\\Richard\\Desktop\\export\\#Motedis\\SQR\\I-CONN SQR [ 84 8
4 5] 45 H4 D 8-5.stp',
/* time_stamp */ '2016-09-15T13:27:33+02:00',
/* author */ ('Richard'),
/* organization */ (''),
/* preprocessor_version */ 'ST-DEVELOPER v16.1',
/* originating_system */ 'Autodesk Inventor 2016',
/* authorisation */ '');

FILE_SCHEMA (('AUTOMOTIVE_DESIGN { 1 0 10303 214 3 1 1 }'));
ENDSEC;

DATA;
#10=MECHANICAL_DESIGN_GEOMETRIC_PRESENTATION_REPRESENTATION('',(#13),#447);
#11=SHAPE_REPRESENTATION_RELATIONSHIP('SRR','None',#456,#12);
#12=ADVANCED_BREP_SHAPE_REPRESENTATION('',(#14),#446);
#13=STYLED_ITEM('',(#465),#14);
#14=MANIFOLD_SOLID_BREP('Solid2',#263);
#15=FACE_BOUND('',#50,.T.);
#16=FACE_BOUND('',#51,.T.);
#17=FACE_BOUND('',#52,.T.);
#18=FACE_BOUND('',#53,.T.);
#19=FACE_BOUND('',#59,.T.);
#20=FACE_BOUND('',#61,.T.);
#21=FACE_BOUND('',#63,.T.);
#22=FACE_BOUND('',#65,.T.);
#23=FACE_BOUND('',#69,.T.);
#24=FACE_BOUND('',#70,.T.);
#25=FACE_BOUND('',#71,.T.);
#26=FACE_BOUND('',#72,.T.);
#27=PLANE('',#268);
#28=PLANE('',#269);
#29=PLANE('',#279);
#30=PLANE('',#292);
#31=PLANE('',#293);
#32=PLANE('',#294);
#33=FACE_OUTER_BOUND('',#47,.T.);
#34=FACE_OUTER_BOUND('',#48,.T.);
#35=FACE_OUTER_BOUND('',#49,.T.);
#36=FACE_OUTER_BOUND('',#54,.T.);
#37=FACE_OUTER_BOUND('',#55,.T.);
#38=FACE_OUTER_BOUND('',#56,.T.);
#39=FACE_OUTER_BOUND('',#57,.T.);
#40=FACE_OUTER_BOUND('',#58,.T.);
#41=FACE_OUTER_BOUND('',#60,.T.);
#42=FACE_OUTER_BOUND('',#62,.T.);
#43=FACE_OUTER_BOUND('',#64,.T.);
#44=FACE_OUTER_BOUND('',#66,.T.);
#45=FACE_OUTER_BOUND('',#67,.T.);
#46=FACE_OUTER_BOUND('',#68,.T.);
#47=EDGE_LOOP('',(#177,#178,#179,#180));
#48=EDGE_LOOP('',(#181,#182,#183,#184));
#49=EDGE_LOOP('',(#185,#186,#187,#188,#189,#190,#191,#192));
#50=EDGE_LOOP('',(#193));
#51=EDGE_LOOP('',(#194));
#52=EDGE_LOOP('',(#195));
#53=EDGE_LOOP('',(#196));
#54=EDGE_LOOP('',(#197,#198,#199,#200));
#55=EDGE_LOOP('',(#201,#202,#203,#204));
#56=EDGE_LOOP('',(#205,#206,#207,#208));
#57=EDGE_LOOP('',(#209,#210,#211,#212));
#58=EDGE_LOOP('',(#213));
#59=EDGE_LOOP('',(#214));
#60=EDGE_LOOP('',(#215));
#61=EDGE_LOOP('',(#216));
#62=EDGE_LOOP('',(#217));
#63=EDGE_LOOP('',(#218));
#64=EDGE_LOOP('',(#219));
#65=EDGE_LOOP('',(#220));
#66=EDGE_LOOP('',(#221,#222,#223,#224));
#67=EDGE_LOOP('',(#225,#226,#227,#228));
#68=EDGE_LOOP('',(#229,#230,#231,#232,#233,#234,#235,#236));
#69=EDGE_LOOP('',(#237));
#70=EDGE_LOOP('',(#238));
#71=EDGE_LOOP('',(#239));
#72=EDGE_LOOP('',(#240));
#73=LINE('',#379,#89);
#74=LINE('',#382,#90);
#75=LINE('',#385,#91);
#76=LINE('',#387,#92);
#77=LINE('',#388,#93);
#78=LINE('',#391,#94);
#79=LINE('',#395,#95);
#80=LINE('',#399,#96);
#81=LINE('',#413,#97);
#82=LINE('',#414,#98);
#83=LINE('',#417,#99);
#84=LINE('',#418,#100);
#85=LINE('',#422,#101);
#86=LINE('',#426,#102);
#87=LINE('',#440,#103);
#88=LINE('',#442,#104);
#89=VECTOR('',#301,5.);
#90=VECTOR('',#304,5.);
#91=VECTOR('',#307,78.);
#92=VECTOR('',#308,5.);
#93=VECTOR('',#309,78.);
#94=VECTOR('',#312,78.);
#95=VECTOR('',#315,78.);
#96=VECTOR('',#318,78.);
#97=VECTOR('',#333,5.);
#98=VECTOR('',#334,5.);
#99=VECTOR('',#337,78.);
#100=VECTOR('',#338,5.);
#101=VECTOR('',#343,5.);
#102=VECTOR('',#348,5.);
#103=VECTOR('',#367,78.);
#104=VECTOR('',#370,78.);
#105=CIRCLE('',#266,3.);
#106=CIRCLE('',#267,3.);
#107=CIRCLE('',#270,3.);
#108=CIRCLE('',#271,3.);
#109=CIRCLE('',#272,3.);
#110=CIRCLE('',#273,4.25);
#111=CIRCLE('',#274,4.25);
#112=CIRCLE('',#275,4.25);
#113=CIRCLE('',#276,4.25);
#114=CIRCLE('',#278,3.);
#115=CIRCLE('',#281,3.);
#116=CIRCLE('',#283,3.);
#117=CIRCLE('',#285,4.25);
#118=CIRCLE('',#287,4.25);
#119=CIRCLE('',#289,4.25);
#120=CIRCLE('',#291,4.25);
#121=VERTEX_POINT('',#375);
#122=VERTEX_POINT('',#376);
#123=VERTEX_POINT('',#378);
#124=VERTEX_POINT('',#380);
#125=VERTEX_POINT('',#384);
#126=VERTEX_POINT('',#386);
#127=VERTEX_POINT('',#390);
#128=VERTEX_POINT('',#392);
#129=VERTEX_POINT('',#394);
#130=VERTEX_POINT('',#396);
#131=VERTEX_POINT('',#398);
#132=VERTEX_POINT('',#401);
#133=VERTEX_POINT('',#403);
#134=VERTEX_POINT('',#405);
#135=VERTEX_POINT('',#407);
#136=VERTEX_POINT('',#410);
#137=VERTEX_POINT('',#411);
#138=VERTEX_POINT('',#416);
#139=VERTEX_POINT('',#420);
#140=VERTEX_POINT('',#424);
#141=VERTEX_POINT('',#428);
#142=VERTEX_POINT('',#431);
#143=VERTEX_POINT('',#434);
#144=VERTEX_POINT('',#437);
#145=EDGE_CURVE('',#121,#122,#105,.T.);
#146=EDGE_CURVE('',#122,#123,#73,.T.);
#147=EDGE_CURVE('',#123,#124,#106,.T.);
#148=EDGE_CURVE('',#124,#121,#74,.T.);
#149=EDGE_CURVE('',#125,#124,#75,.T.);
#150=EDGE_CURVE('',#126,#125,#76,.T.);
#151=EDGE_CURVE('',#121,#126,#77,.T.);
#152=EDGE_CURVE('',#123,#127,#78,.T.);
#153=EDGE_CURVE('',#128,#127,#107,.T.);
#154=EDGE_CURVE('',#128,#129,#79,.T.);
#155=EDGE_CURVE('',#130,#129,#108,.T.);
#156=EDGE_CURVE('',#130,#131,#80,.T.);
#157=EDGE_CURVE('',#125,#131,#109,.T.);
#158=EDGE_CURVE('',#132,#132,#110,.T.);
#159=EDGE_CURVE('',#133,#133,#111,.T.);
#160=EDGE_CURVE('',#134,#134,#112,.T.);
#161=EDGE_CURVE('',#135,#135,#113,.T.);
#162=EDGE_CURVE('',#136,#137,#114,.T.);
#163=EDGE_CURVE('',#137,#128,#81,.T.);
#164=EDGE_CURVE('',#127,#136,#82,.T.);
#165=EDGE_CURVE('',#138,#137,#83,.T.);
#166=EDGE_CURVE('',#129,#138,#84,.T.);
#167=EDGE_CURVE('',#138,#139,#115,.T.);
#168=EDGE_CURVE('',#139,#130,#85,.T.);
#169=EDGE_CURVE('',#140,#126,#116,.T.);
#170=EDGE_CURVE('',#131,#140,#86,.T.);
#171=EDGE_CURVE('',#141,#141,#117,.T.);
#172=EDGE_CURVE('',#142,#142,#118,.T.);
#173=EDGE_CURVE('',#143,#143,#119,.T.);
#174=EDGE_CURVE('',#144,#144,#120,.T.);
#175=EDGE_CURVE('',#136,#122,#87,.T.);
#176=EDGE_CURVE('',#140,#139,#88,.T.);
#177=ORIENTED_EDGE('',*,*,#145,.T.);
#178=ORIENTED_EDGE('',*,*,#146,.T.);
#179=ORIENTED_EDGE('',*,*,#147,.T.);
#180=ORIENTED_EDGE('',*,*,#148,.T.);
#181=ORIENTED_EDGE('',*,*,#148,.F.);
#182=ORIENTED_EDGE('',*,*,#149,.F.);
#183=ORIENTED_EDGE('',*,*,#150,.F.);
#184=ORIENTED_EDGE('',*,*,#151,.F.);
#185=ORIENTED_EDGE('',*,*,#147,.F.);
#186=ORIENTED_EDGE('',*,*,#152,.T.);
#187=ORIENTED_EDGE('',*,*,#153,.F.);
#188=ORIENTED_EDGE('',*,*,#154,.T.);
#189=ORIENTED_EDGE('',*,*,#155,.F.);
#190=ORIENTED_EDGE('',*,*,#156,.T.);
#191=ORIENTED_EDGE('',*,*,#157,.F.);
#192=ORIENTED_EDGE('',*,*,#149,.T.);
#193=ORIENTED_EDGE('',*,*,#158,.T.);
#194=ORIENTED_EDGE('',*,*,#159,.T.);
#195=ORIENTED_EDGE('',*,*,#160,.T.);
#196=ORIENTED_EDGE('',*,*,#161,.T.);
#197=ORIENTED_EDGE('',*,*,#162,.T.);
#198=ORIENTED_EDGE('',*,*,#163,.T.);
#199=ORIENTED_EDGE('',*,*,#153,.T.);
#200=ORIENTED_EDGE('',*,*,#164,.T.);
#201=ORIENTED_EDGE('',*,*,#163,.F.);
#202=ORIENTED_EDGE('',*,*,#165,.F.);
#203=ORIENTED_EDGE('',*,*,#166,.F.);
#204=ORIENTED_EDGE('',*,*,#154,.F.);
#205=ORIENTED_EDGE('',*,*,#167,.T.);
#206=ORIENTED_EDGE('',*,*,#168,.T.);
#207=ORIENTED_EDGE('',*,*,#155,.T.);
#208=ORIENTED_EDGE('',*,*,#166,.T.);
#209=ORIENTED_EDGE('',*,*,#169,.T.);
#210=ORIENTED_EDGE('',*,*,#150,.T.);
#211=ORIENTED_EDGE('',*,*,#157,.T.);
#212=ORIENTED_EDGE('',*,*,#170,.T.);
#213=ORIENTED_EDGE('',*,*,#171,.F.);
#214=ORIENTED_EDGE('',*,*,#158,.F.);
#215=ORIENTED_EDGE('',*,*,#172,.F.);
#216=ORIENTED_EDGE('',*,*,#159,.F.);
#217=ORIENTED_EDGE('',*,*,#173,.F.);
#218=ORIENTED_EDGE('',*,*,#160,.F.);
#219=ORIENTED_EDGE('',*,*,#174,.F.);
#220=ORIENTED_EDGE('',*,*,#161,.F.);
#221=ORIENTED_EDGE('',*,*,#146,.F.);
#222=ORIENTED_EDGE('',*,*,#175,.F.);
#223=ORIENTED_EDGE('',*,*,#164,.F.);
#224=ORIENTED_EDGE('',*,*,#152,.F.);
#225=ORIENTED_EDGE('',*,*,#168,.F.);
#226=ORIENTED_EDGE('',*,*,#176,.F.);
#227=ORIENTED_EDGE('',*,*,#170,.F.);
#228=ORIENTED_EDGE('',*,*,#156,.F.);
#229=ORIENTED_EDGE('',*,*,#145,.F.);
#230=ORIENTED_EDGE('',*,*,#151,.T.);
#231=ORIENTED_EDGE('',*,*,#169,.F.);
#232=ORIENTED_EDGE('',*,*,#176,.T.);
#233=ORIENTED_EDGE('',*,*,#167,.F.);
#234=ORIENTED_EDGE('',*,*,#165,.T.);
#235=ORIENTED_EDGE('',*,*,#162,.F.);
#236=ORIENTED_EDGE('',*,*,#175,.T.);
#237=ORIENTED_EDGE('',*,*,#171,.T.);
#238=ORIENTED_EDGE('',*,*,#172,.T.);
#239=ORIENTED_EDGE('',*,*,#173,.T.);
#240=ORIENTED_EDGE('',*,*,#174,.T.);
#241=CYLINDRICAL_SURFACE('',#265,3.);
#242=CYLINDRICAL_SURFACE('',#277,3.);
#243=CYLINDRICAL_SURFACE('',#280,3.);
#244=CYLINDRICAL_SURFACE('',#282,3.);
#245=CYLINDRICAL_SURFACE('',#284,4.25);
#246=CYLINDRICAL_SURFACE('',#286,4.25);
#247=CYLINDRICAL_SURFACE('',#288,4.25);
#248=CYLINDRICAL_SURFACE('',#290,4.25);
#249=ADVANCED_FACE('',(#33),#241,.T.);
#250=ADVANCED_FACE('',(#34),#27,.T.);
#251=ADVANCED_FACE('',(#35,#15,#16,#17,#18),#28,.F.);
#252=ADVANCED_FACE('',(#36),#242,.T.);
#253=ADVANCED_FACE('',(#37),#29,.T.);
#254=ADVANCED_FACE('',(#38),#243,.T.);
#255=ADVANCED_FACE('',(#39),#244,.T.);
#256=ADVANCED_FACE('',(#40,#19),#245,.F.);
#257=ADVANCED_FACE('',(#41,#20),#246,.F.);
#258=ADVANCED_FACE('',(#42,#21),#247,.F.);
#259=ADVANCED_FACE('',(#43,#22),#248,.F.);
#260=ADVANCED_FACE('',(#44),#30,.T.);
#261=ADVANCED_FACE('',(#45),#31,.T.);
#262=ADVANCED_FACE('',(#46,#23,#24,#25,#26),#32,.T.);
#263=CLOSED_SHELL('',(#249,#250,#251,#252,#253,#254,#255,#256,#257,#258,
#259,#260,#261,#262));
#264=AXIS2_PLACEMENT_3D('placement',#373,#295,#296);
#265=AXIS2_PLACEMENT_3D('',#374,#297,#298);
#266=AXIS2_PLACEMENT_3D('',#377,#299,#300);
#267=AXIS2_PLACEMENT_3D('',#381,#302,#303);
#268=AXIS2_PLACEMENT_3D('',#383,#305,#306);
#269=AXIS2_PLACEMENT_3D('',#389,#310,#311);
#270=AXIS2_PLACEMENT_3D('',#393,#313,#314);
#271=AXIS2_PLACEMENT_3D('',#397,#316,#317);
#272=AXIS2_PLACEMENT_3D('',#400,#319,#320);
#273=AXIS2_PLACEMENT_3D('',#402,#321,#322);
#274=AXIS2_PLACEMENT_3D('',#404,#323,#324);
#275=AXIS2_PLACEMENT_3D('',#406,#325,#326);
#276=AXIS2_PLACEMENT_3D('',#408,#327,#328);
#277=AXIS2_PLACEMENT_3D('',#409,#329,#330);
#278=AXIS2_PLACEMENT_3D('',#412,#331,#332);
#279=AXIS2_PLACEMENT_3D('',#415,#335,#336);
#280=AXIS2_PLACEMENT_3D('',#419,#339,#340);
#281=AXIS2_PLACEMENT_3D('',#421,#341,#342);
#282=AXIS2_PLACEMENT_3D('',#423,#344,#345);
#283=AXIS2_PLACEMENT_3D('',#425,#346,#347);
#284=AXIS2_PLACEMENT_3D('',#427,#349,#350);
#285=AXIS2_PLACEMENT_3D('',#429,#351,#352);
#286=AXIS2_PLACEMENT_3D('',#430,#353,#354);
#287=AXIS2_PLACEMENT_3D('',#432,#355,#356);
#288=AXIS2_PLACEMENT_3D('',#433,#357,#358);
#289=AXIS2_PLACEMENT_3D('',#435,#359,#360);
#290=AXIS2_PLACEMENT_3D('',#436,#361,#362);
#291=AXIS2_PLACEMENT_3D('',#438,#363,#364);
#292=AXIS2_PLACEMENT_3D('',#439,#365,#366);
#293=AXIS2_PLACEMENT_3D('',#441,#368,#369);
#294=AXIS2_PLACEMENT_3D('',#443,#371,#372);
#295=DIRECTION('axis',(0.,0.,1.));
#296=DIRECTION('refdir',(1.,0.,0.));
#297=DIRECTION('center_axis',(0.,0.,1.));
#298=DIRECTION('ref_axis',(0.707106781186547,0.707106781186547,0.));
#299=DIRECTION('center_axis',(0.,0.,-1.));
#300=DIRECTION('ref_axis',(0.707106781186547,0.707106781186547,0.));
#301=DIRECTION('',(0.,0.,-1.));
#302=DIRECTION('center_axis',(0.,0.,1.));
#303=DIRECTION('ref_axis',(0.707106781186547,0.707106781186547,0.));
#304=DIRECTION('',(0.,0.,1.));
#305=DIRECTION('center_axis',(2.11471052309554E-16,1.,0.));
#306=DIRECTION('ref_axis',(-1.,0.,0.));
#307=DIRECTION('',(1.,-2.11471052309554E-16,0.));
#308=DIRECTION('',(0.,0.,-1.));
#309=DIRECTION('',(-1.,2.11471052309554E-16,0.));
#310=DIRECTION('center_axis',(0.,0.,1.));
#311=DIRECTION('ref_axis',(1.,0.,0.));
#312=DIRECTION('',(0.,-1.,0.));
#313=DIRECTION('center_axis',(0.,0.,1.));
#314=DIRECTION('ref_axis',(0.707106781186547,-0.707106781186547,0.));
#315=DIRECTION('',(-1.,-3.1720657846433E-16,0.));
#316=DIRECTION('center_axis',(0.,0.,1.));
#317=DIRECTION('ref_axis',(-0.707106781186547,-0.707106781186547,0.));
#318=DIRECTION('',(0.,1.,0.));
#319=DIRECTION('center_axis',(0.,0.,1.));
#320=DIRECTION('ref_axis',(-0.707106781186547,0.707106781186547,0.));
#321=DIRECTION('center_axis',(0.,0.,1.));
#322=DIRECTION('ref_axis',(-1.,0.,0.));
#323=DIRECTION('center_axis',(0.,0.,1.));
#324=DIRECTION('ref_axis',(-1.,0.,0.));
#325=DIRECTION('center_axis',(0.,0.,1.));
#326=DIRECTION('ref_axis',(-1.,0.,0.));
#327=DIRECTION('center_axis',(0.,0.,1.));
#328=DIRECTION('ref_axis',(-1.,0.,0.));
#329=DIRECTION('center_axis',(0.,0.,1.));
#330=DIRECTION('ref_axis',(0.707106781186547,-0.707106781186547,0.));
#331=DIRECTION('center_axis',(0.,0.,-1.));
#332=DIRECTION('ref_axis',(0.707106781186547,-0.707106781186547,0.));
#333=DIRECTION('',(0.,0.,-1.));
#334=DIRECTION('',(0.,0.,1.));
#335=DIRECTION('center_axis',(3.1720657846433E-16,-1.,0.));
#336=DIRECTION('ref_axis',(1.,0.,0.));
#337=DIRECTION('',(1.,3.1720657846433E-16,0.));
#338=DIRECTION('',(0.,0.,1.));
#339=DIRECTION('center_axis',(0.,0.,1.));
#340=DIRECTION('ref_axis',(-0.707106781186547,-0.707106781186547,0.));
#341=DIRECTION('center_axis',(0.,0.,-1.));
#342=DIRECTION('ref_axis',(-0.707106781186547,-0.707106781186547,0.));
#343=DIRECTION('',(0.,0.,-1.));
#344=DIRECTION('center_axis',(0.,0.,1.));
#345=DIRECTION('ref_axis',(-0.707106781186547,0.707106781186547,0.));
#346=DIRECTION('center_axis',(0.,0.,-1.));
#347=DIRECTION('ref_axis',(-0.707106781186547,0.707106781186547,0.));
#348=DIRECTION('',(0.,0.,1.));
#349=DIRECTION('center_axis',(0.,0.,1.));
#350=DIRECTION('ref_axis',(-1.,0.,0.));
#351=DIRECTION('center_axis',(0.,0.,-1.));
#352=DIRECTION('ref_axis',(-1.,0.,0.));
#353=DIRECTION('center_axis',(0.,0.,1.));
#354=DIRECTION('ref_axis',(-1.,0.,0.));
#355=DIRECTION('center_axis',(0.,0.,-1.));
#356=DIRECTION('ref_axis',(-1.,0.,0.));
#357=DIRECTION('center_axis',(0.,0.,1.));
#358=DIRECTION('ref_axis',(-1.,0.,0.));
#359=DIRECTION('center_axis',(0.,0.,-1.));
#360=DIRECTION('ref_axis',(-1.,0.,0.));
#361=DIRECTION('center_axis',(0.,0.,1.));
#362=DIRECTION('ref_axis',(-1.,0.,0.));
#363=DIRECTION('center_axis',(0.,0.,-1.));
#364=DIRECTION('ref_axis',(-1.,0.,0.));
#365=DIRECTION('center_axis',(1.,0.,0.));
#366=DIRECTION('ref_axis',(0.,1.,0.));
#367=DIRECTION('',(0.,1.,0.));
#368=DIRECTION('center_axis',(-1.,0.,0.));
#369=DIRECTION('ref_axis',(0.,-1.,0.));
#370=DIRECTION('',(0.,-1.,0.));
#371=DIRECTION('center_axis',(0.,0.,1.));
#372=DIRECTION('ref_axis',(1.,0.,0.));
#373=CARTESIAN_POINT('',(0.,0.,0.));
#374=CARTESIAN_POINT('Origin',(39.,39.,0.));
#375=CARTESIAN_POINT('',(39.,42.,5.));
#376=CARTESIAN_POINT('',(42.,39.,5.));
#377=CARTESIAN_POINT('Origin',(39.,39.,5.));
#378=CARTESIAN_POINT('',(42.,39.,0.));
#379=CARTESIAN_POINT('',(42.,39.,0.));
#380=CARTESIAN_POINT('',(39.,42.,0.));
#381=CARTESIAN_POINT('Origin',(39.,39.,0.));
#382=CARTESIAN_POINT('',(39.,42.,0.));
#383=CARTESIAN_POINT('Origin',(42.,42.,0.));
#384=CARTESIAN_POINT('',(-39.,42.,0.));
#385=CARTESIAN_POINT('',(-42.,42.,0.));
#386=CARTESIAN_POINT('',(-39.,42.,5.));
#387=CARTESIAN_POINT('',(-39.,42.,0.));
#388=CARTESIAN_POINT('',(-42.,42.,5.));
#389=CARTESIAN_POINT('Origin',(0.,1.58603289232165E-15,0.));
#390=CARTESIAN_POINT('',(42.,-39.,0.));
#391=CARTESIAN_POINT('',(42.,42.,0.));
#392=CARTESIAN_POINT('',(39.,-42.,0.));
#393=CARTESIAN_POINT('Origin',(39.,-39.,0.));
#394=CARTESIAN_POINT('',(-39.,-42.,0.));
#395=CARTESIAN_POINT('',(42.,-42.,0.));
#396=CARTESIAN_POINT('',(-42.,-39.,0.));
#397=CARTESIAN_POINT('Origin',(-39.,-39.,0.));
#398=CARTESIAN_POINT('',(-42.,39.,0.));
#399=CARTESIAN_POINT('',(-42.,-42.,0.));
#400=CARTESIAN_POINT('Origin',(-39.,39.,0.));
#401=CARTESIAN_POINT('',(-18.25,22.5,0.));
#402=CARTESIAN_POINT('Origin',(-22.5,22.5,0.));
#403=CARTESIAN_POINT('',(-18.25,-22.5,0.));
#404=CARTESIAN_POINT('Origin',(-22.5,-22.5,0.));
#405=CARTESIAN_POINT('',(26.75,-22.5,0.));
#406=CARTESIAN_POINT('Origin',(22.5,-22.5,0.));
#407=CARTESIAN_POINT('',(26.75,22.5,0.));
#408=CARTESIAN_POINT('Origin',(22.5,22.5,0.));
#409=CARTESIAN_POINT('Origin',(39.,-39.,0.));
#410=CARTESIAN_POINT('',(42.,-39.,5.));
#411=CARTESIAN_POINT('',(39.,-42.,5.));
#412=CARTESIAN_POINT('Origin',(39.,-39.,5.));
#413=CARTESIAN_POINT('',(39.,-42.,0.));
#414=CARTESIAN_POINT('',(42.,-39.,0.));
#415=CARTESIAN_POINT('Origin',(-42.,-42.,0.));
#416=CARTESIAN_POINT('',(-39.,-42.,5.));
#417=CARTESIAN_POINT('',(42.,-42.,5.));
#418=CARTESIAN_POINT('',(-39.,-42.,0.));
#419=CARTESIAN_POINT('Origin',(-39.,-39.,0.));
#420=CARTESIAN_POINT('',(-42.,-39.,5.));
#421=CARTESIAN_POINT('Origin',(-39.,-39.,5.));
#422=CARTESIAN_POINT('',(-42.,-39.,0.));
#423=CARTESIAN_POINT('Origin',(-39.,39.,0.));
#424=CARTESIAN_POINT('',(-42.,39.,5.));
#425=CARTESIAN_POINT('Origin',(-39.,39.,5.));
#426=CARTESIAN_POINT('',(-42.,39.,0.));
#427=CARTESIAN_POINT('Origin',(-22.5,22.5,0.));
#428=CARTESIAN_POINT('',(-18.25,22.5,5.));
#429=CARTESIAN_POINT('Origin',(-22.5,22.5,5.));
#430=CARTESIAN_POINT('Origin',(-22.5,-22.5,0.));
#431=CARTESIAN_POINT('',(-18.25,-22.5,5.));
#432=CARTESIAN_POINT('Origin',(-22.5,-22.5,5.));
#433=CARTESIAN_POINT('Origin',(22.5,-22.5,0.));
#434=CARTESIAN_POINT('',(26.75,-22.5,5.));
#435=CARTESIAN_POINT('Origin',(22.5,-22.5,5.));
#436=CARTESIAN_POINT('Origin',(22.5,22.5,0.));
#437=CARTESIAN_POINT('',(26.75,22.5,5.));
#438=CARTESIAN_POINT('Origin',(22.5,22.5,5.));
#439=CARTESIAN_POINT('Origin',(42.,-42.,0.));
#440=CARTESIAN_POINT('',(42.,42.,5.));
#441=CARTESIAN_POINT('Origin',(-42.,42.,0.));
#442=CARTESIAN_POINT('',(-42.,-42.,5.));
#443=CARTESIAN_POINT('Origin',(0.,0.,5.));
#444=UNCERTAINTY_MEASURE_WITH_UNIT(LENGTH_MEASURE(0.01),#448,
'DISTANCE_ACCURACY_VALUE',
'Maximum model space distance between geometric entities at asserted c
onnectivities');
#445=UNCERTAINTY_MEASURE_WITH_UNIT(LENGTH_MEASURE(1.E-6),#448,
'DISTANCE_ACCURACY_VALUE',
'Maximum model space distance between geometric entities at asserted c
onnectivities');
#446=(
GEOMETRIC_REPRESENTATION_CONTEXT(3)
GLOBAL_UNCERTAINTY_ASSIGNED_CONTEXT((#444))
GLOBAL_UNIT_ASSIGNED_CONTEXT((#448,#451,#449))
REPRESENTATION_CONTEXT('','3D')
);
#447=(
GEOMETRIC_REPRESENTATION_CONTEXT(3)
GLOBAL_UNCERTAINTY_ASSIGNED_CONTEXT((#445))
GLOBAL_UNIT_ASSIGNED_CONTEXT((#448,#451,#449))
REPRESENTATION_CONTEXT('','3D')
);
#448=(
LENGTH_UNIT()
NAMED_UNIT(*)
SI_UNIT(.MILLI.,.METRE.)
);
#449=(
NAMED_UNIT(*)
SI_UNIT($,.STERADIAN.)
SOLID_ANGLE_UNIT()
);
#450=DIMENSIONAL_EXPONENTS(0.,0.,0.,0.,0.,0.,0.);
#451=(
CONVERSION_BASED_UNIT('degree',#453)
NAMED_UNIT(#450)
PLANE_ANGLE_UNIT()
);
#452=(
NAMED_UNIT(*)
PLANE_ANGLE_UNIT()
SI_UNIT($,.RADIAN.)
);
#453=PLANE_ANGLE_MEASURE_WITH_UNIT(PLANE_ANGLE_MEASURE(0.01745329252),#452);
#454=SHAPE_DEFINITION_REPRESENTATION(#455,#456);
#455=PRODUCT_DEFINITION_SHAPE('',$,#458);
#456=SHAPE_REPRESENTATION('',(#264),#446);
#457=PRODUCT_DEFINITION_CONTEXT('part definition',#462,'design');
#458=PRODUCT_DEFINITION('I-CONN SQR [ 84 84 5] 45 H4 D 8-5',
'I-CONN SQR [ 84 84 5] 45 H4 D 8-5',#459,#457);
#459=PRODUCT_DEFINITION_FORMATION('',$,#464);
#460=PRODUCT_RELATED_PRODUCT_CATEGORY(
'I-CONN SQR [ 84 84 5] 45 H4 D 8-5','I-CONN SQR [ 84 84 5] 45 H4 D 8-5',
(#464));
#461=APPLICATION_PROTOCOL_DEFINITION('international standard',
'automotive_design',2009,#462);
#462=APPLICATION_CONTEXT(
'Core Data for Automotive Mechanical Design Process');
#463=PRODUCT_CONTEXT('part definition',#462,'mechanical');
#464=PRODUCT('I-CONN SQR [ 84 84 5] 45 H4 D 8-5',
'I-CONN SQR [ 84 84 5] 45 H4 D 8-5',$,(#463));
#465=PRESENTATION_STYLE_ASSIGNMENT((#466));
#466=SURFACE_STYLE_USAGE(.BOTH.,#467);
#467=SURFACE_SIDE_STYLE('',(#468));
#468=SURFACE_STYLE_FILL_AREA(#469);
#469=FILL_AREA_STYLE('',(#470));
#470=FILL_AREA_STYLE_COLOUR('',#471);
#471=COLOUR_RGB('',0.956862745098039,0.956862745098039,0.956862745098039);
ENDSEC;
END-ISO-10303-21;
